ISO-10303-21;
HEADER;
FILE_DESCRIPTION (( 'STEP AP203' ),
    '1' );
FILE_NAME ('QB-CTZQWP-10-852-M.STEP',
    '2020-12-24T01:48:52',
    ( '' ),
    ( '' ),
    'SwSTEP 2.0',
    'SolidWorks 2020',
    '' );
FILE_SCHEMA (( 'CONFIG_CONTROL_DESIGN' ));
ENDSEC;

DATA;
#1 = CALENDAR_DATE ( 2020, 24, 12 ) ;
#2 = AXIS2_PLACEMENT_3D ( 'NONE', #310, #239, #54 ) ;
#3 = CARTESIAN_POINT ( 'NONE',  ( -1.614212418857619014, 6.123233995736767268E-16, -5.000000000000000888 ) ) ;
#4 = ADVANCED_FACE ( 'NONE', ( #208 ), #334, .F. ) ;
#5 = DIRECTION ( 'NONE',  ( -1.000000000000000000, -0.000000000000000000, -0.000000000000000000 ) ) ;
#6 = PERSON ( 'UNSPECIFIED', 'UNSPECIFIED', 'UNSPECIFIED', ('UNSPECIFIED'), ('UNSPECIFIED'), ('UNSPECIFIED') ) ;
#7 = LINE ( 'NONE', #118, #147 ) ;
#8 = LOCAL_TIME ( 9, 48, 52.00000000000000000, #258 ) ;
#9 = CARTESIAN_POINT ( 'NONE',  ( -3.000000000000000000, 5.000000000000000000, 0.000000000000000000 ) ) ;
#10 = APPROVAL ( #161, 'UNSPECIFIED' ) ;
#11 = ORIENTED_EDGE ( 'NONE', *, *, #22, .F. ) ;
#12 = LOCAL_TIME ( 9, 48, 52.00000000000000000, #95 ) ;
#13 = ORIENTED_EDGE ( 'NONE', *, *, #135, .T. ) ;
#14 = VERTEX_POINT ( 'NONE', #162 ) ;
#15 = VERTEX_POINT ( 'NONE', #179 ) ;
#16 = ORIENTED_EDGE ( 'NONE', *, *, #185, .F. ) ;
#17 = AXIS2_PLACEMENT_3D ( 'NONE', #59, #143, #315 ) ;
#18 = EDGE_LOOP ( 'NONE', ( #272, #155 ) ) ;
#19 = APPROVAL ( #49, 'UNSPECIFIED' ) ;
#20 = DIRECTION ( 'NONE',  ( -1.000000000000000000, -0.000000000000000000, -0.000000000000000000 ) ) ;
#21 = VECTOR ( 'NONE', #261, 1000.000000000000000 ) ;
#22 = EDGE_CURVE ( 'NONE', #197, #14, #86, .T. ) ;
#23 = DIRECTION ( 'NONE',  ( 0.000000000000000000, 0.000000000000000000, -1.000000000000000000 ) ) ;
#24 = DATE_AND_TIME ( #53, #159 ) ;
#25 = DIRECTION ( 'NONE',  ( -1.000000000000000000, -0.000000000000000000, -0.000000000000000000 ) ) ;
#26 = DIRECTION ( 'NONE',  ( -0.000000000000000000, 0.000000000000000000, 1.000000000000000000 ) ) ;
#27 = DIRECTION ( 'NONE',  ( -1.000000000000000000, -0.000000000000000000, -0.000000000000000000 ) ) ;
#28 = CARTESIAN_POINT ( 'NONE',  ( 3.000000000000000000, 0.000000000000000000, 0.000000000000000000 ) ) ;
#29 = PERSON_AND_ORGANIZATION ( #6, #183 ) ;
#30 = CARTESIAN_POINT ( 'NONE',  ( -1.614212418857619014, 1.555301434917138433E-15, -12.69999999999999929 ) ) ;
#31 = PERSON_AND_ORGANIZATION ( #6, #183 ) ;
#32 = CARTESIAN_POINT ( 'NONE',  ( -3.000000000000000000, 0.000000000000000000, 0.000000000000000000 ) ) ;
#33 = CIRCLE ( 'NONE', #234, 5.000000000000000000 ) ;
#34 = VERTEX_POINT ( 'NONE', #278 ) ;
#35 = ADVANCED_FACE ( 'NONE', ( #332 ), #157, .F. ) ;
#36 = AXIS2_PLACEMENT_3D ( 'NONE', #45, #250, #23 ) ;
#37 = ORIENTED_EDGE ( 'NONE', *, *, #219, .F. ) ;
#38 = VECTOR ( 'NONE', #27, 1000.000000000000000 ) ;
#39 = ORIENTED_EDGE ( 'NONE', *, *, #200, .T. ) ;
#40 = VERTEX_POINT ( 'NONE', #105 ) ;
#41 = CIRCLE ( 'NONE', #136, 5.000000000000000888 ) ;
#42 = ORIENTED_EDGE ( 'NONE', *, *, #241, .T. ) ;
#43 = AXIS2_PLACEMENT_3D ( 'NONE', #141, #62, #267 ) ;
#44 = DIRECTION ( 'NONE',  ( -1.000000000000000000, -0.000000000000000000, -0.000000000000000000 ) ) ;
#45 = CARTESIAN_POINT ( 'NONE',  ( -1.250000000000000222, 5.000000000000000000, 0.000000000000000000 ) ) ;
#46 = LINE ( 'NONE', #3, #38 ) ;
#47 = PRODUCT ( 'QB-CTZQWP-10-852-M', 'QB-CTZQWP-10-852-M', '', ( #242 ) ) ;
#48 = VECTOR ( 'NONE', #210, 1000.000000000000000 ) ;
#49 = APPROVAL_STATUS ( 'not_yet_approved' ) ;
#50 = FACE_BOUND ( 'NONE', #326, .T. ) ;
#51 = PERSON_AND_ORGANIZATION ( #6, #183 ) ;
#52 = PLANE ( 'NONE',  #216 ) ;
#53 = CALENDAR_DATE ( 2020, 24, 12 ) ;
#54 = DIRECTION ( 'NONE',  ( 0.000000000000000000, 0.000000000000000000, 1.000000000000000000 ) ) ;
#55 = APPROVAL_DATE_TIME ( #121, #61 ) ;
#56 = EDGE_CURVE ( 'NONE', #34, #220, #67, .T. ) ;
#57 = APPROVAL_DATE_TIME ( #184, #10 ) ;
#58 = DIRECTION ( 'NONE',  ( 0.000000000000000000, 0.000000000000000000, 1.000000000000000000 ) ) ;
#59 = CARTESIAN_POINT ( 'NONE',  ( -1.614212418857619014, 0.000000000000000000, 0.000000000000000000 ) ) ;
#60 = APPROVAL_ROLE ( '' ) ;
#61 = APPROVAL ( #191, 'UNSPECIFIED' ) ;
#62 = DIRECTION ( 'NONE',  ( -1.000000000000000000, -0.000000000000000000, -0.000000000000000000 ) ) ;
#63 = CIRCLE ( 'NONE', #2, 5.000000000000000000 ) ;
#64 = CALENDAR_DATE ( 2020, 24, 12 ) ;
#65 = ORIENTED_EDGE ( 'NONE', *, *, #111, .T. ) ;
#66 = VERTEX_POINT ( 'NONE', #134 ) ;
#67 = CIRCLE ( 'NONE', #260, 5.000000000000000000 ) ;
#68 = EDGE_LOOP ( 'NONE', ( #271, #198, #196, #175 ) ) ;
#69 = CC_DESIGN_APPROVAL ( #61, ( #82 ) ) ;
#70 = VERTEX_POINT ( 'NONE', #156 ) ;
#71 = ADVANCED_FACE ( 'NONE', ( #257 ), #306, .F. ) ;
#72 = ORIENTED_EDGE ( 'NONE', *, *, #130, .T. ) ;
#73 = DIRECTION ( 'NONE',  ( 0.000000000000000000, 0.000000000000000000, 1.000000000000000000 ) ) ;
#74 = CIRCLE ( 'NONE', #330, 5.000000000000001776 ) ;
#75 = DIRECTION ( 'NONE',  ( -1.000000000000000000, -0.000000000000000000, -0.000000000000000000 ) ) ;
#76 = EDGE_CURVE ( 'NONE', #70, #297, #275, .T. ) ;
#77 = CARTESIAN_POINT ( 'NONE',  ( -3.000000000000000000, 0.000000000000000000, 0.000000000000000000 ) ) ;
#78 = DATE_TIME_ROLE ( 'classification_date' ) ;
#79 = CARTESIAN_POINT ( 'NONE',  ( -3.000000000000000000, 6.123233995736766282E-16, -5.000000000000000000 ) ) ;
#80 = AXIS2_PLACEMENT_3D ( 'NONE', #77, #25, #181 ) ;
#81 = CYLINDRICAL_SURFACE ( 'NONE', #108, 5.000000000000000888 ) ;
#82 = PRODUCT_DEFINITION ( 'UNKNOWN', '', #331, #145 ) ;
#83 = CALENDAR_DATE ( 2020, 24, 12 ) ;
#84 = DIRECTION ( 'NONE',  ( 0.000000000000000000, 0.000000000000000000, 1.000000000000000000 ) ) ;
#85 = CARTESIAN_POINT ( 'NONE',  ( 3.000000000000000000, 0.000000000000000000, 0.000000000000000000 ) ) ;
#86 = CIRCLE ( 'NONE', #129, 12.69999999999999929 ) ;
#87 = PLANE ( 'NONE',  #292 ) ;
#88 = CYLINDRICAL_SURFACE ( 'NONE', #17, 5.000000000000000888 ) ;
#89 = PERSON_AND_ORGANIZATION ( #6, #183 ) ;
#90 = ADVANCED_FACE ( 'NONE', ( #259 ), #81, .F. ) ;
#91 = FACE_BOUND ( 'NONE', #18, .T. ) ;
#92 = DIRECTION ( 'NONE',  ( 0.000000000000000000, 0.000000000000000000, 1.000000000000000000 ) ) ;
#93 = CLOSED_SHELL ( 'NONE', ( #149, #4, #35, #302, #90, #153, #305, #172, #104, #71 ) ) ;
#94 = AXIS2_PLACEMENT_3D ( 'NONE', #262, #120, #170 ) ;
#95 = COORDINATED_UNIVERSAL_TIME_OFFSET ( 8, 0, .AHEAD. ) ;
#96 = EDGE_CURVE ( 'NONE', #70, #220, #133, .T. ) ;
#97 = VERTEX_POINT ( 'NONE', #230 ) ;
#98 = VERTEX_POINT ( 'NONE', #79 ) ;
#99 = EDGE_LOOP ( 'NONE', ( #195, #13, #101, #270 ) ) ;
#100 = EDGE_CURVE ( 'NONE', #66, #40, #41, .T. ) ;
#101 = ORIENTED_EDGE ( 'NONE', *, *, #299, .T. ) ;
#102 = MANIFOLD_SOLID_BREP ( 'Ðý×', #93 ) ;
#103 = CARTESIAN_POINT ( 'NONE',  ( -3.000000000000000000, 0.000000000000000000, 0.000000000000000000 ) ) ;
#104 = ADVANCED_FACE ( 'NONE', ( #110, #50 ), #52, .F. ) ;
#105 = CARTESIAN_POINT ( 'NONE',  ( -1.250000000000000222, 6.123233995736767268E-16, -5.000000000000000888 ) ) ;
#106 = CARTESIAN_POINT ( 'NONE',  ( 1.250000000000000444, 0.000000000000000000, 0.000000000000000000 ) ) ;
#107 = DIRECTION ( 'NONE',  ( 0.000000000000000000, 0.000000000000000000, 1.000000000000000000 ) ) ;
#108 = AXIS2_PLACEMENT_3D ( 'NONE', #128, #75, #180 ) ;
#109 = COORDINATED_UNIVERSAL_TIME_OFFSET ( 8, 0, .AHEAD. ) ;
#110 = FACE_OUTER_BOUND ( 'NONE', #123, .T. ) ;
#111 = EDGE_CURVE ( 'NONE', #40, #66, #203, .T. ) ;
#112 = PRODUCT_RELATED_PRODUCT_CATEGORY ( 'detail', '', ( #47 ) ) ;
#113 = CC_DESIGN_APPROVAL ( #10, ( #331 ) ) ;
#114 = DATE_AND_TIME ( #142, #12 ) ;
#115 = FACE_OUTER_BOUND ( 'NONE', #178, .T. ) ;
#116 = PERSON_AND_ORGANIZATION ( #6, #183 ) ;
#117 = CARTESIAN_POINT ( 'NONE',  ( -1.614212418857619014, 6.123233995736767268E-16, -5.000000000000000888 ) ) ;
#118 = CARTESIAN_POINT ( 'NONE',  ( -1.614212418857619014, 0.000000000000000000, 5.000000000000000888 ) ) ;
#119 = CARTESIAN_POINT ( 'NONE',  ( 0.000000000000000000, 0.000000000000000000, 0.000000000000000000 ) ) ;
#120 = DIRECTION ( 'NONE',  ( -1.000000000000000000, 0.000000000000000000, -0.000000000000000000 ) ) ;
#121 = DATE_AND_TIME ( #64, #177 ) ;
#122 = ORIENTED_EDGE ( 'NONE', *, *, #56, .T. ) ;
#123 = EDGE_LOOP ( 'NONE', ( #37, #322 ) ) ;
#124 = ORIENTED_EDGE ( 'NONE', *, *, #22, .T. ) ;
#125 = ORIENTED_EDGE ( 'NONE', *, *, #221, .T. ) ;
#126 = ORIENTED_EDGE ( 'NONE', *, *, #135, .F. ) ;
#127 = EDGE_CURVE ( 'NONE', #297, #70, #74, .T. ) ;
#128 = CARTESIAN_POINT ( 'NONE',  ( -1.614212418857619014, 0.000000000000000000, 0.000000000000000000 ) ) ;
#129 = AXIS2_PLACEMENT_3D ( 'NONE', #103, #301, #202 ) ;
#130 = EDGE_CURVE ( 'NONE', #249, #98, #167, .T. ) ;
#131 = CARTESIAN_POINT ( 'NONE',  ( -1.250000000000000222, 0.000000000000000000, 0.000000000000000000 ) ) ;
#132 = APPROVAL_PERSON_ORGANIZATION ( #89, #61, #60 ) ;
#133 = LINE ( 'NONE', #251, #335 ) ;
#134 = CARTESIAN_POINT ( 'NONE',  ( -1.250000000000000222, 0.000000000000000000, 5.000000000000000888 ) ) ;
#135 = EDGE_CURVE ( 'NONE', #40, #98, #46, .T. ) ;
#136 = AXIS2_PLACEMENT_3D ( 'NONE', #304, #283, #333 ) ;
#137 = PERSON_AND_ORGANIZATION ( #6, #183 ) ;
#138 = DIRECTION ( 'NONE',  ( 0.000000000000000000, 0.000000000000000000, -1.000000000000000000 ) ) ;
#139 = DATE_AND_TIME ( #1, #8 ) ;
#140 = DIRECTION ( 'NONE',  ( -1.000000000000000000, -0.000000000000000000, -0.000000000000000000 ) ) ;
#141 = CARTESIAN_POINT ( 'NONE',  ( -3.000000000000000000, 0.000000000000000000, 0.000000000000000000 ) ) ;
#142 = CALENDAR_DATE ( 2020, 24, 12 ) ;
#143 = DIRECTION ( 'NONE',  ( -1.000000000000000000, -0.000000000000000000, -0.000000000000000000 ) ) ;
#144 = CARTESIAN_POINT ( 'NONE',  ( -3.000000000000000000, 0.000000000000000000, 5.000000000000000000 ) ) ;
#145 = DESIGN_CONTEXT ( 'detailed design', #273, 'design' ) ;
#146 = LINE ( 'NONE', #211, #223 ) ;
#147 = VECTOR ( 'NONE', #212, 1000.000000000000000 ) ;
#148 =( NAMED_UNIT ( * ) SI_UNIT ( $, .STERADIAN. ) SOLID_ANGLE_UNIT ( ) );
#149 = ADVANCED_FACE ( 'NONE', ( #188 ), #164, .T. ) ;
#150 = EDGE_LOOP ( 'NONE', ( #16, #42, #199, #298 ) ) ;
#151 = ORIENTED_EDGE ( 'NONE', *, *, #317, .F. ) ;
#152 = CC_DESIGN_SECURITY_CLASSIFICATION ( #255, ( #331 ) ) ;
#153 = ADVANCED_FACE ( 'NONE', ( #115 ), #88, .F. ) ;
#154 = EDGE_LOOP ( 'NONE', ( #124, #226 ) ) ;
#155 = ORIENTED_EDGE ( 'NONE', *, *, #299, .F. ) ;
#156 = CARTESIAN_POINT ( 'NONE',  ( 3.000000000000000000, 0.000000000000000000, 5.000000000000001776 ) ) ;
#157 = CYLINDRICAL_SURFACE ( 'NONE', #312, 5.000000000000000888 ) ;
#158 = CARTESIAN_POINT ( 'NONE',  ( 3.000000000000000000, 0.000000000000000000, 0.000000000000000000 ) ) ;
#159 = LOCAL_TIME ( 9, 48, 52.00000000000000000, #238 ) ;
#160 = DIRECTION ( 'NONE',  ( -1.000000000000000000, 0.000000000000000000, -0.000000000000000000 ) ) ;
#161 = APPROVAL_STATUS ( 'not_yet_approved' ) ;
#162 = CARTESIAN_POINT ( 'NONE',  ( -3.000000000000000000, 1.555301434917138433E-15, -12.69999999999999929 ) ) ;
#163 = AXIS2_PLACEMENT_3D ( 'NONE', #329, #254, #73 ) ;
#164 = CYLINDRICAL_SURFACE ( 'NONE', #205, 12.69999999999999929 ) ;
#165 = PERSON_AND_ORGANIZATION ( #6, #183 ) ;
#166 = APPLICATION_CONTEXT ( 'configuration controlled 3d designs of mechanical parts and assemblies' ) ;
#167 = CIRCLE ( 'NONE', #80, 5.000000000000000000 ) ;
#168 = PERSON_AND_ORGANIZATION ( #6, #183 ) ;
#169 = CARTESIAN_POINT ( 'NONE',  ( 1.250000000000000444, 0.000000000000000000, 5.000000000000000000 ) ) ;
#170 = DIRECTION ( 'NONE',  ( -0.000000000000000000, 0.000000000000000000, 1.000000000000000000 ) ) ;
#171 = PLANE ( 'NONE',  #94 ) ;
#172 = ADVANCED_FACE ( 'NONE', ( #236 ), #309, .T. ) ;
#173 = DIRECTION ( 'NONE',  ( -1.000000000000000000, -0.000000000000000000, -0.000000000000000000 ) ) ;
#174 = ORIENTED_EDGE ( 'NONE', *, *, #96, .F. ) ;
#175 = ORIENTED_EDGE ( 'NONE', *, *, #201, .T. ) ;
#176 = ORIENTED_EDGE ( 'NONE', *, *, #127, .F. ) ;
#177 = LOCAL_TIME ( 9, 48, 52.00000000000000000, #291 ) ;
#178 = EDGE_LOOP ( 'NONE', ( #126, #65, #125, #72 ) ) ;
#179 = CARTESIAN_POINT ( 'NONE',  ( 3.000000000000000000, 1.555301434917138433E-15, -12.69999999999999929 ) ) ;
#180 = DIRECTION ( 'NONE',  ( 0.000000000000000000, 0.000000000000000000, 1.000000000000000000 ) ) ;
#181 = DIRECTION ( 'NONE',  ( 0.000000000000000000, 0.000000000000000000, 1.000000000000000000 ) ) ;
#182 = CARTESIAN_POINT ( 'NONE',  ( 3.000000000000000000, 12.69999999999999929, 0.000000000000000000 ) ) ;
#183 = ORGANIZATION ( 'UNSPECIFIED', 'UNSPECIFIED', '' ) ;
#184 = DATE_AND_TIME ( #83, #276 ) ;
#185 = EDGE_CURVE ( 'NONE', #15, #14, #190, .T. ) ;
#186 = LINE ( 'NONE', #117, #48 ) ;
#187 = PERSON_AND_ORGANIZATION_ROLE ( 'design_supplier' ) ;
#188 = FACE_OUTER_BOUND ( 'NONE', #224, .T. ) ;
#189 = APPLICATION_PROTOCOL_DEFINITION ( 'international standard', 'config_control_design', 1994, #166 ) ;
#190 = LINE ( 'NONE', #30, #21 ) ;
#191 = APPROVAL_STATUS ( 'not_yet_approved' ) ;
#192 = PERSON_AND_ORGANIZATION_ROLE ( 'design_owner' ) ;
#193 = CC_DESIGN_PERSON_AND_ORGANIZATION_ASSIGNMENT ( #29, #232, ( #255 ) ) ;
#194 = FACE_OUTER_BOUND ( 'NONE', #154, .T. ) ;
#195 = ORIENTED_EDGE ( 'NONE', *, *, #100, .T. ) ;
#196 = ORIENTED_EDGE ( 'NONE', *, *, #96, .T. ) ;
#197 = VERTEX_POINT ( 'NONE', #209 ) ;
#198 = ORIENTED_EDGE ( 'NONE', *, *, #76, .F. ) ;
#199 = ORIENTED_EDGE ( 'NONE', *, *, #317, .T. ) ;
#200 = EDGE_CURVE ( 'NONE', #297, #34, #186, .T. ) ;
#201 = EDGE_CURVE ( 'NONE', #220, #34, #63, .T. ) ;
#202 = DIRECTION ( 'NONE',  ( 0.000000000000000000, 0.000000000000000000, 1.000000000000000000 ) ) ;
#203 = CIRCLE ( 'NONE', #295, 5.000000000000000888 ) ;
#204 = DIRECTION ( 'NONE',  ( 0.000000000000000000, 0.000000000000000000, 1.000000000000000000 ) ) ;
#205 = AXIS2_PLACEMENT_3D ( 'NONE', #289, #140, #285 ) ;
#206 = DIRECTION ( 'NONE',  ( 0.000000000000000000, 0.000000000000000000, 1.000000000000000000 ) ) ;
#207 = DIRECTION ( 'NONE',  ( 0.000000000000000000, 0.000000000000000000, 1.000000000000000000 ) ) ;
#208 = FACE_OUTER_BOUND ( 'NONE', #99, .T. ) ;
#209 = CARTESIAN_POINT ( 'NONE',  ( -3.000000000000000000, 0.000000000000000000, 12.69999999999999929 ) ) ;
#210 = DIRECTION ( 'NONE',  ( -1.000000000000000000, -0.000000000000000000, -0.000000000000000000 ) ) ;
#211 = CARTESIAN_POINT ( 'NONE',  ( -1.614212418857619014, 0.000000000000000000, 12.69999999999999929 ) ) ;
#212 = DIRECTION ( 'NONE',  ( -1.000000000000000000, -0.000000000000000000, -0.000000000000000000 ) ) ;
#213 = DIRECTION ( 'NONE',  ( 1.000000000000000000, 0.000000000000000000, 0.000000000000000000 ) ) ;
#214 = AXIS2_PLACEMENT_3D ( 'NONE', #28, #286, #265 ) ;
#215 =( NAMED_UNIT ( * ) PLANE_ANGLE_UNIT ( ) SI_UNIT ( $, .RADIAN. ) );
#216 = AXIS2_PLACEMENT_3D ( 'NONE', #182, #160, #26 ) ;
#217 =( LENGTH_UNIT ( ) NAMED_UNIT ( * ) SI_UNIT ( .MILLI., .METRE. ) );
#218 = CIRCLE ( 'NONE', #280, 12.69999999999999929 ) ;
#219 = EDGE_CURVE ( 'NONE', #97, #15, #218, .T. ) ;
#220 = VERTEX_POINT ( 'NONE', #169 ) ;
#221 = EDGE_CURVE ( 'NONE', #66, #249, #7, .T. ) ;
#222 = ORIENTED_EDGE ( 'NONE', *, *, #219, .T. ) ;
#223 = VECTOR ( 'NONE', #173, 1000.000000000000000 ) ;
#224 = EDGE_LOOP ( 'NONE', ( #222, #327, #11, #151 ) ) ;
#225 = CC_DESIGN_PERSON_AND_ORGANIZATION_ASSIGNMENT ( #31, #192, ( #47 ) ) ;
#226 = ORIENTED_EDGE ( 'NONE', *, *, #282, .T. ) ;
#227 = DIRECTION ( 'NONE',  ( 1.000000000000000000, 0.000000000000000000, 0.000000000000000000 ) ) ;
#228 = CARTESIAN_POINT ( 'NONE',  ( 3.000000000000000000, 0.000000000000000000, 0.000000000000000000 ) ) ;
#229 = APPROVAL_PERSON_ORGANIZATION ( #168, #10, #279 ) ;
#230 = CARTESIAN_POINT ( 'NONE',  ( 3.000000000000000000, 0.000000000000000000, 12.69999999999999929 ) ) ;
#231 = DIRECTION ( 'NONE',  ( -1.000000000000000000, -0.000000000000000000, -0.000000000000000000 ) ) ;
#232 = PERSON_AND_ORGANIZATION_ROLE ( 'classification_officer' ) ;
#233 = DIRECTION ( 'NONE',  ( -1.000000000000000000, -0.000000000000000000, -0.000000000000000000 ) ) ;
#234 = AXIS2_PLACEMENT_3D ( 'NONE', #32, #268, #92 ) ;
#235 = APPROVAL_DATE_TIME ( #24, #19 ) ;
#236 = FACE_OUTER_BOUND ( 'NONE', #150, .T. ) ;
#237 = DIRECTION ( 'NONE',  ( 0.000000000000000000, 0.000000000000000000, -1.000000000000000000 ) ) ;
#238 = COORDINATED_UNIVERSAL_TIME_OFFSET ( 8, 0, .AHEAD. ) ;
#239 = DIRECTION ( 'NONE',  ( -1.000000000000000000, -0.000000000000000000, -0.000000000000000000 ) ) ;
#240 = FACE_OUTER_BOUND ( 'NONE', #243, .T. ) ;
#241 = EDGE_CURVE ( 'NONE', #15, #97, #248, .T. ) ;
#242 = MECHANICAL_CONTEXT ( 'NONE', #166, 'mechanical' ) ;
#243 = EDGE_LOOP ( 'NONE', ( #323, #245 ) ) ;
#244 = AXIS2_PLACEMENT_3D ( 'NONE', #264, #5, #84 ) ;
#245 = ORIENTED_EDGE ( 'NONE', *, *, #56, .F. ) ;
#246 = EDGE_LOOP ( 'NONE', ( #294, #274 ) ) ;
#247 = CC_DESIGN_PERSON_AND_ORGANIZATION_ASSIGNMENT ( #137, #187, ( #331 ) ) ;
#248 = CIRCLE ( 'NONE', #214, 12.69999999999999929 ) ;
#249 = VERTEX_POINT ( 'NONE', #144 ) ;
#250 = DIRECTION ( 'NONE',  ( 1.000000000000000000, 0.000000000000000000, 0.000000000000000000 ) ) ;
#251 = CARTESIAN_POINT ( 'NONE',  ( -1.614212418857619014, 0.000000000000000000, 5.000000000000000888 ) ) ;
#252 = AXIS2_PLACEMENT_3D ( 'NONE', #158, #20, #207 ) ;
#253 = CC_DESIGN_DATE_AND_TIME_ASSIGNMENT ( #114, #256, ( #82 ) ) ;
#254 = DIRECTION ( 'NONE',  ( -1.000000000000000000, -0.000000000000000000, -0.000000000000000000 ) ) ;
#255 = SECURITY_CLASSIFICATION ( '', '', #263 ) ;
#256 = DATE_TIME_ROLE ( 'creation_date' ) ;
#257 = FACE_OUTER_BOUND ( 'NONE', #246, .T. ) ;
#258 = COORDINATED_UNIVERSAL_TIME_OFFSET ( 8, 0, .AHEAD. ) ;
#259 = FACE_OUTER_BOUND ( 'NONE', #68, .T. ) ;
#260 = AXIS2_PLACEMENT_3D ( 'NONE', #106, #44, #204 ) ;
#261 = DIRECTION ( 'NONE',  ( -1.000000000000000000, -0.000000000000000000, -0.000000000000000000 ) ) ;
#262 = CARTESIAN_POINT ( 'NONE',  ( 1.250000000000000222, 5.000000000000000000, 0.000000000000000000 ) ) ;
#263 = SECURITY_CLASSIFICATION_LEVEL ( 'unclassified' ) ;
#264 = CARTESIAN_POINT ( 'NONE',  ( -1.614212418857619014, 0.000000000000000000, 0.000000000000000000 ) ) ;
#265 = DIRECTION ( 'NONE',  ( 0.000000000000000000, 0.000000000000000000, 1.000000000000000000 ) ) ;
#266 = CARTESIAN_POINT ( 'NONE',  ( 3.000000000000000000, 6.123233995736768255E-16, -5.000000000000001776 ) ) ;
#267 = DIRECTION ( 'NONE',  ( 0.000000000000000000, 0.000000000000000000, 1.000000000000000000 ) ) ;
#268 = DIRECTION ( 'NONE',  ( -1.000000000000000000, -0.000000000000000000, -0.000000000000000000 ) ) ;
#269 = ORIENTED_EDGE ( 'NONE', *, *, #76, .T. ) ;
#270 = ORIENTED_EDGE ( 'NONE', *, *, #221, .F. ) ;
#271 = ORIENTED_EDGE ( 'NONE', *, *, #200, .F. ) ;
#272 = ORIENTED_EDGE ( 'NONE', *, *, #130, .F. ) ;
#273 = APPLICATION_CONTEXT ( 'configuration controlled 3d designs of mechanical parts and assemblies' ) ;
#274 = ORIENTED_EDGE ( 'NONE', *, *, #111, .F. ) ;
#275 = CIRCLE ( 'NONE', #252, 5.000000000000001776 ) ;
#276 = LOCAL_TIME ( 9, 48, 52.00000000000000000, #109 ) ;
#277 = ADVANCED_BREP_SHAPE_REPRESENTATION ( 'QB-CTZQWP-10-852-M', ( #102, #296 ), #325 ) ;
#278 = CARTESIAN_POINT ( 'NONE',  ( 1.250000000000000444, 6.123233995736766282E-16, -5.000000000000000000 ) ) ;
#279 = APPROVAL_ROLE ( '' ) ;
#280 = AXIS2_PLACEMENT_3D ( 'NONE', #85, #288, #58 ) ;
#281 = CC_DESIGN_PERSON_AND_ORGANIZATION_ASSIGNMENT ( #51, #287, ( #331 ) ) ;
#282 = EDGE_CURVE ( 'NONE', #14, #197, #324, .T. ) ;
#283 = DIRECTION ( 'NONE',  ( 1.000000000000000000, 0.000000000000000000, 0.000000000000000000 ) ) ;
#284 = SHAPE_DEFINITION_REPRESENTATION ( #313, #277 ) ;
#285 = DIRECTION ( 'NONE',  ( 0.000000000000000000, 0.000000000000000000, 1.000000000000000000 ) ) ;
#286 = DIRECTION ( 'NONE',  ( -1.000000000000000000, -0.000000000000000000, -0.000000000000000000 ) ) ;
#287 = PERSON_AND_ORGANIZATION_ROLE ( 'creator' ) ;
#288 = DIRECTION ( 'NONE',  ( -1.000000000000000000, -0.000000000000000000, -0.000000000000000000 ) ) ;
#289 = CARTESIAN_POINT ( 'NONE',  ( -1.614212418857619014, 0.000000000000000000, 0.000000000000000000 ) ) ;
#290 = DIRECTION ( 'NONE',  ( 0.000000000000000000, 0.000000000000000000, 1.000000000000000000 ) ) ;
#291 = COORDINATED_UNIVERSAL_TIME_OFFSET ( 8, 0, .AHEAD. ) ;
#292 = AXIS2_PLACEMENT_3D ( 'NONE', #9, #311, #237 ) ;
#293 = ORIENTED_EDGE ( 'NONE', *, *, #127, .T. ) ;
#294 = ORIENTED_EDGE ( 'NONE', *, *, #100, .F. ) ;
#295 = AXIS2_PLACEMENT_3D ( 'NONE', #131, #227, #138 ) ;
#296 = AXIS2_PLACEMENT_3D ( 'NONE', #119, #290, #213 ) ;
#297 = VERTEX_POINT ( 'NONE', #266 ) ;
#298 = ORIENTED_EDGE ( 'NONE', *, *, #282, .F. ) ;
#299 = EDGE_CURVE ( 'NONE', #98, #249, #33, .T. ) ;
#300 = DIRECTION ( 'NONE',  ( -1.000000000000000000, -0.000000000000000000, -0.000000000000000000 ) ) ;
#301 = DIRECTION ( 'NONE',  ( -1.000000000000000000, -0.000000000000000000, -0.000000000000000000 ) ) ;
#302 = ADVANCED_FACE ( 'NONE', ( #240 ), #171, .F. ) ;
#303 = CARTESIAN_POINT ( 'NONE',  ( -1.614212418857619014, 0.000000000000000000, 0.000000000000000000 ) ) ;
#304 = CARTESIAN_POINT ( 'NONE',  ( -1.250000000000000222, 0.000000000000000000, 0.000000000000000000 ) ) ;
#305 = ADVANCED_FACE ( 'NONE', ( #91, #194 ), #87, .F. ) ;
#306 = PLANE ( 'NONE',  #36 ) ;
#307 = CC_DESIGN_APPROVAL ( #19, ( #255 ) ) ;
#308 = UNCERTAINTY_MEASURE_WITH_UNIT (LENGTH_MEASURE( 1.000000000000000082E-05 ), #217, 'distance_accuracy_value', 'NONE');
#309 = CYLINDRICAL_SURFACE ( 'NONE', #244, 12.69999999999999929 ) ;
#310 = CARTESIAN_POINT ( 'NONE',  ( 1.250000000000000444, 0.000000000000000000, 0.000000000000000000 ) ) ;
#311 = DIRECTION ( 'NONE',  ( 1.000000000000000000, 0.000000000000000000, 0.000000000000000000 ) ) ;
#312 = AXIS2_PLACEMENT_3D ( 'NONE', #303, #300, #107 ) ;
#313 = PRODUCT_DEFINITION_SHAPE ( 'NONE', 'NONE',  #82 ) ;
#314 = APPROVAL_ROLE ( '' ) ;
#315 = DIRECTION ( 'NONE',  ( 0.000000000000000000, 0.000000000000000000, 1.000000000000000000 ) ) ;
#316 = APPLICATION_PROTOCOL_DEFINITION ( 'international standard', 'config_control_design', 1994, #273 ) ;
#317 = EDGE_CURVE ( 'NONE', #97, #197, #146, .T. ) ;
#318 = CC_DESIGN_PERSON_AND_ORGANIZATION_ASSIGNMENT ( #165, #319, ( #82 ) ) ;
#319 = PERSON_AND_ORGANIZATION_ROLE ( 'creator' ) ;
#320 = APPROVAL_PERSON_ORGANIZATION ( #116, #19, #314 ) ;
#321 = EDGE_LOOP ( 'NONE', ( #176, #39, #122, #174 ) ) ;
#322 = ORIENTED_EDGE ( 'NONE', *, *, #241, .F. ) ;
#323 = ORIENTED_EDGE ( 'NONE', *, *, #201, .F. ) ;
#324 = CIRCLE ( 'NONE', #43, 12.69999999999999929 ) ;
#325 =( GEOMETRIC_REPRESENTATION_CONTEXT ( 3 ) GLOBAL_UNCERTAINTY_ASSIGNED_CONTEXT ( ( #308 ) ) GLOBAL_UNIT_ASSIGNED_CONTEXT ( ( #217, #215, #148 ) ) REPRESENTATION_CONTEXT ( 'NONE', 'WORKASPACE' ) );
#326 = EDGE_LOOP ( 'NONE', ( #269, #293 ) ) ;
#327 = ORIENTED_EDGE ( 'NONE', *, *, #185, .T. ) ;
#328 = CC_DESIGN_DATE_AND_TIME_ASSIGNMENT ( #139, #78, ( #255 ) ) ;
#329 = CARTESIAN_POINT ( 'NONE',  ( -1.614212418857619014, 0.000000000000000000, 0.000000000000000000 ) ) ;
#330 = AXIS2_PLACEMENT_3D ( 'NONE', #228, #233, #206 ) ;
#331 = PRODUCT_DEFINITION_FORMATION_WITH_SPECIFIED_SOURCE ( 'ANY', '', #47, .NOT_KNOWN. ) ;
#332 = FACE_OUTER_BOUND ( 'NONE', #321, .T. ) ;
#333 = DIRECTION ( 'NONE',  ( 0.000000000000000000, 0.000000000000000000, -1.000000000000000000 ) ) ;
#334 = CYLINDRICAL_SURFACE ( 'NONE', #163, 5.000000000000000888 ) ;
#335 = VECTOR ( 'NONE', #231, 1000.000000000000000 ) ;
ENDSEC;
END-ISO-10303-21;
